NOS MUDAMOS: WWW.PARTITURAS-GRATIS.COM

Patience - Guns and Roses [Acordes para guitarra] [Tab del solo e intro]

Video:

Nivel: Intermedio


[INTRO]

C G A D C
d#|--0----0-----------------------------|---3---|---0---|---2---------------------------|
A#|--1-------1-----3p1-----1------------|---3---|---3---|---3-------8--10/12-15--12--8--|
F#|--0---------0--------0-----0---------|---0---|---3---|---2---7h9---------------------|
C#|--2----------------------------2-----|---0---|---3---|---0---------------------------|
G#|--3-------------------------------3--|---2---|---0---|---X---------------------------|
D#|--0----------------------------------|---3---|---X---|---X---------------------------|
[Silbido--->
G A D
d#|--------------------------|------------|--------|------------------------------------|
A#|--8-10-12-13--15--12---8--|--10p8-10~~-|-10/15--|--13-15--12-13--10-12--8-10^--8-(8)-|
F#|--------------------------|------------|--------|------------------------------------|
C#|--------------------------|------------|--------|------------------------------------|
G#|--------------------------|------------|--------|------------------------------------|
D#|--------------------------|------------|--------|------------------------------------|

C G
C Em
C G D


C
Shed a tear 'cause I missing' you
G
I'm still alright to smile
A D
Girl I think about you every day now
C
Was a time when I wasn't sure
G
But you set my mind at ease
A
There is no doubt
D
You're in my heart now


C G
Said woman take it slow
C Em
It'll work itself out fine [D]
C G [D] d#|--2-2-2-2---3-2-0-2-----
All we need is just a little patience A#|--3-3-3-3---3-3-3-3-----
C G F#|--2-2-2-2---2-2-2-2-----
Said sugar make it slow and C#|--0-0-0-0---0-0-0-0-----
C Em G#|--X-X-X-X---X-X-X-X-----
We come together fine D#|--X-X-X-X---X-X-X-X-----
C G [D]
All we need is just a little patience
[D]
Patience


C
I sit here on the stairs
G
'Cause I'd rather be alone
A D
If I can't have you right now I'll wait, dear
C
Sometimes I get so tense
G
But I can't speed up the time
A
But you know, love there's
D
One more thing to consider


C G
Said woman take it slow
C Em
And thing will be just fine [D]
C G [D] d#|--2-2-2-2---3-2-0-2----
You and I'll just use a little patience A#|--3-3-3-3---3-3-3-3----
C G F#|--2-2-2-2---2-2-2-2----
Said sugar take the time C#|--0-0-0-0---0-0-0-0----
C Em G#|--X-X-X-X---X-X-X-X----
'Cause the lights are shining bright D#|--X-X-X-X---X-X-X-X----
C G [D]
You and I've got what it takes to make it
[D]
We won't fake it


[SOLO]
C G C Em
d#|--8p7-8--8/10--8----------------------|--8p7--8/10--10/12~~---------|
A#|------------------10/12--10--8h10--8--|-----------------------------|
F#|--------------------------------------|-----------------------------|
C#|--------------------------------------|-----------------------------|
G#|--------------------------------------|-----------------------------|
D#|--------------------------------------|-----------------------------|

C G [D]
d#|--8p7-8--8/10--8----------------------|--10/12-10-10~~--|---12/14-12---10h12-10~~--|
A#|------------------10/12--10--8h10--8--|-----------------|--------------------------|
F#|--------------------------------------|-----------------|--------------------------|
C#|--------------------------------------|-----------------|--------------------------|
G#|--------------------------------------|-----------------|--------------------------|
D#|--------------------------------------|-----------------|--------------------------|

C G C Em
d#|-------------------------------------|---------------------7p5-------|
A#|--3/5--5-7--5/3--3-5--3/1--3p5-------|-3/5--5h7-5/3-3-5-7------7p5---|
F#|-------------------------------3-1---|-------------------------------|
C#|-------------------------------------|-------------------------------|
G#|-------------------------------------|-------------------------------|
D#|-------------------------------------|-------------------------------|

C G [D]
d#|-----------------------------------------------------------------|
A#|--7-8-8/10--10-8-10-8--7---8/10--8-10---8-10--8--10/12--10-10~~--|
F#|-----------------------------------------------------------------|
C#|-----------------------------------------------------------------|
G#|-----------------------------------------------------------------|
D#|-----------------------------------------------------------------|

[D] [D] [D]
d#|-------------------------|----------------------------|-----------------------------|
A#|--3/5-3-3----------------|---5/8--7-7~~---------------|--5/8-7-7~~--5-7-8-7-5-7~~---|
F#|----------5-3----3-5-----|-------------5-3---3-5------|-----------------------------|
C#|--------------5-------3--|-----------------5------3---|-----------------------------|
G#|-------------------------|----------------------------|-----------------------------|
D#|-------------------------|----------------------------|-----------------------------|


D G D G D G
d#|--2-----3---------10~~----14~~--|--14-14--12--10-10--8-7--8-8--5--3---|
A#|--3-----3-----------------------|-------------------------------------|
F#|--2-----0-----------------------|-------------------------------------|
C#|--0-----0---3/10----------------|-------------------------------------|
G#|--X-----2-----------------------|-------------------------------------|
D#|--X-----3-----------------------|-------------------------------------|


G D G
...little patience, mm yeah, mm yeah
D G
need a little patience, yeah,
D G
just a little patience, yeah,
D
some more patience..


D
I'll been walking' the streets to night
G
just trying to get it right
D
it's hard to see when so many around
G
You know I don't like being stuck in a crowd
D
And the streets don't change, but baby the names
G
I ain't got time for this game
D
'Cause I need you,
G
yeah but I need you,
D
oh I need you,
G
woh I need you,
D G D
oo This time


Para verlo mejor: http://tabs.ultimate-guitar.com/g/guns_n_roses/patience_ver2_tab.htm
¿No te gusta esta interpretación? Busca más.

1 comentario:

  1. Hola, quiero compartir algunas partituras de Guns and Roses - Use Your Illusion II

    http://www.youbioit.com/es/article/9265/partituras-guns-and-roses-use-your-illusion-ii

    Me fueron muy útiles.

    ResponderEliminar