NOS MUDAMOS: WWW.PARTITURAS-GRATIS.COM

Buffy the Vampire Slayer Opening [Guitarra] [Tab]

__E5\\\\\\\\\\\\\\\\|G5\\\\\\\\\\\\|B5\\\\\\\\\\\\\\|D5\\\\\\\\\\\\

e]------------------|--------------|----------------|--------------
B]------------------|--------------|----------------|--------------
G]-9-------11---12--|-7------------|-77------9--11--|-7---------x\-
D]------------------|--------------|----------------|--------------
A]-7--------9---10--|-5------------|-55------7---9--|-5---------x\-
E]------------------|--------------|----------------|--------------

__E5\\\\\\\\\\\\\\\\|G5\\\\\\\\\\\\|B5\\\\\\\\\\\\\\|D5\\\\\\\\\\\\

e]------------------|--------------|----------------|--------------
B]------------------|--------------|----------------|--------------
G]-9999999-1111--12-|-777777777777-|-7777777-99--11-|-777777777----
D]------------------|--------------|----------------|--------------
A]-7777777--9-9--10-|-555555555555-|-5555555-77---9-|-555555555----
E]------------------|--------------|----------------|--------------


__D5\_______________|A5\___________|B5\\\\\\\\\\\\\\|

e]------------------|--------------|----------------|
B]-10-------12---10-|-8--------8\7-|777777----------|
G]------------------|--------------|--------x\------|
D]------------------|--------------|----------------|
A]------------------|--------------|--------x\------|
E]------------------|--------------|----------------|


__E5\\\\\\\\\\\\\\\\|G5\\\\\\\\\\\\\\\\|B5\\\\\\\\\\\\\\\\\|

e]-7777777-10-10-12-|-7777777-10-10-12-|-5555555-77--10-10-|
B]------------------|------------------|-------------------|
G]------------------|------------------|-------------------|
D]------------------|------------------|-------------------|
A|------------------|------------------|-------------------|
E]------------------|------------------|-------------------|


__D5\\\\\\\\\\\\\\\\|D#5\\\\\\\\\\\\\\|E5\____\____\____|

e]-555555555555555\-|-6666666666666-/-|-----------------|
B]------------------|-----------------|-----------------|
G]------------------|-----------------|-9---------------|
D]------------------|-----------------|-----------------|
A|------------------|-----------------|-7---------------|
E]------------------|-----------------|-----------------|

Fuente: http://www.cise.ufl.edu/~hsiao/media/tv/buffy/theme.html
Nivel: Principiante Incluída en nuestra lista de partituras.

No hay comentarios:

Publicar un comentario